Enviado por:
Pengui_89

Abel Pintos, Luna Llena

Imprimir
era la luna llena q asomaba su carita en la cordillera
e|------------------------------------------------|
B|------------------------------------------------|
G|-2---2-0-0-2------2-0-0-0-0-0-2-----------------| X2
D|---3---------3-3----------------3-3-3-2-2-3-0---|
A|------------------------------------------------|
E|------------------------------------------------|

 
e|--------------------------------------------|
B|-----------3-1-1------------3-1-1-----------|
G|-0-0000-0---------0-0000-0----------2-0-2---|
D|--------------------------------------------|
A|--------------------------------------------|
E|--------------------------------------------|
Aviso: Este fichero es trabajo propio de su transcriptor y representa su interpretación personal de la canción. El material contenido en esta página es para exclusivo uso privado, por lo que se prohibe su reproducción o retransmisión, así como su uso para fines comerciales.

Califica esta canción


Comentarios en Facebook