Enviado por:
YOGY

Reik, Llego Tu Amor

Imprimir
Punteo*:

e-----7-------7-------7-------------------
B---9-------7-------5----------7--9-------
G-9----9--8----8--6-----6----8------------
D--------------------------9--------------
A-----------------------------------------
E-----------------------------------------

e-----7-------7-------7------7------------
B---9-------7-------5--------0------------
G-9----9--8----8--6-----6----8------------
D----------------------------9------------
A-----------------------------------------
E-----------------------------------------

( con punteo )

*Llego tu amor y en un instante me atrapó
sin preguntar sin un aviso quizo entrar
en fondo de este corazon herido
que ahora siente con cada latido
oigo una voz...

Fa#
diciendome que todo
             A
va estar muy bien
            B
que no lo deje escapar

E    B      A   A    B
siento volar cuando estas tu
E    B      A   A    B
siento tocar el cielo azul
Dom#  Fa#  B
sin duda todo es por ti

E    B      A   A     B
quiero alcanzar lo que soñe
E    B      A   A
quiero besar lo que anhele
Dom# Fa# Dom# Fa# A
no hay mas que decir

Lam
enamorado de ti

e-----7-------7-------7-------------------
B---9-------7-------5----------7--9-------
G-9----9--8----8--6-----6----8------------
D--------------------------9--------------
A-----------------------------------------
E-----------------------------------------

e-----7-------7-------7------7------------
B---9-------7-------5--------0------------
G-9----9--8----8--6-----6----8------------
D----------------------------9------------
A-----------------------------------------
E-----------------------------------------


Llego tu amor y me hizo fuerte en el dolor
sin preguntar sin pedir nada me curo
en fondo de este corazon herido
que ahora vivecon ada latido
oigo una voz...

Fa#
diciendome que todo
             A
va estar muy bien
            B
que no lo deje escapar

E    B      A   A    B
siento volar cuando estas tu
E    B      A   A    B
siento tocar el cielo azul
Dom#  Fa#  B
sin duda todo es por ti

E    B      A   A     B
quiero alcanzar lo que soñe
E    B      A   A
quiero besar lo que anhele
Dom# Fa# Dom# Fa# A
no hay mas que decir

Lam
Enamorado de ti
Aviso: Este fichero es trabajo propio de su transcriptor y representa su interpretación personal de la canción. El material contenido en esta página es para exclusivo uso privado, por lo que se prohibe su reproducción o retransmisión, así como su uso para fines comerciales.

Califica esta canción


Comentarios en Facebook