Enviado por:
carlos avatar

Jesse & Joy, Llegaste Tu

Imprimir
Do                               Do9     
Hundida yo estaba, ahogada en soledad
  Mim                          Mim/Si
mi  corazón lloraba de un vacío total
Rem
todo lo intenté
                 Rem/Do
por donde quiera te busque
     Lam                 La9
eras tú mi necesidad


Do                                Do9 
triste y desolada, ya no pude soportar
Mim                             Mim/Si
más desesperada, era imposible de estar
Rem
todo lo intenté
             Rem/Do
por donde quiera te busque
     Am
eras tú mi necesidad
Fa             Sol 
alce mi rostro y...

Coro:
   Do          Lam
llegaste tú, todo cambió
   Do            Lam
llegaste tú, la esperanza triunfó
   Fa         Sol       Do
llegaste tú, volví a nacer

Pequeño interludio: Do- Lam

    Do                        Do9
por tanto tiempo quise encontrar la solución
Mim                          Mim/Si
a ese gran vacío que llevaba en mi interior
Rem                        Re/Do
Todo lo intenté, por donde quiera te busqué
     Lam
eras tú mi necesidad
Fa              Sol 
alce mi rostro y...

Coro:
   Do          Lam
llegaste tú, todo cambió
   Do            Lam
llegaste tú, la esperanza triunfó
   Fa         Sol       Do
llegaste tú, volví a nacer 



El solo es así:



e|-------------------------------------13-12------|
B|------------13--------------------13-------13~--|
G|-/9-9-10-12----10-9~---/9-9-10-12---------------|
D|------------------------------------------------|
A|------------------------------------------------|
D|------------------------------------------------|

e|-------------------------------------13-15~--|
B|------------13--------------------13---------|
G|-/9-9-10-12----10-9~---/9-9-10-12------------|
D|---------------------------------------------|
A|---------------------------------------------|
D|---------------------------------------------|
Aviso: Este fichero es trabajo propio de su transcriptor y representa su interpretación personal de la canción. El material contenido en esta página es para exclusivo uso privado, por lo que se prohibe su reproducción o retransmisión, así como su uso para fines comerciales.

Califica esta canción


Comentarios en Facebook