Enviado por:
xxblackxpinkxx

No Te Va Gustar, Como Si Estuviera

Imprimir
                     "Como si estuviera", No Te Va Gustar
-------------------------------------------------------------------------------
·Transcripto por: Sebastián Ar.
·Buenos Aires, Argentina, 2009
·Email MSN: [email protected]
·Sí, sacado de oído.
_____________________________________
+Álbum: "El Camino Más Largo..." (2008)
+Afinación: EADG Standard
+Ritmo: 4/4
+Dificultad: Básico/Intermedio
_____________________________________

VERSOS (los repite durante todos los versos):
G|------------------------------------------------------------------
D|------------------------------------------------------------------
A|---------------------------------0-0-0-0-0-0-0-0------------------
E|-0-0-0-0-0-0-0-4-4-4-4-4-4-4-4-----------------0-0-0-0-0-0-0-0--

A veces alterna con:
G|------------------------------------------------------------------
D|------------------------------------------------------------------
A|---------------------------------0-0-0-0h2-2-2-2------------------
E|-0-0-0-0-0-0-0-4-4-4-4-4-4-4-4-----------------0-0-0-0-0-0-0-0--


ESTRIBILLOS:
G|-----------------------------------------------------------------------
D|-----------------------------------------------------------------------
A|-----------------------------0000000000000h22222222222/14-14-14-14-14!-
E|33333333333333222222222222222------------------------------------------
[repite]

ACOMPAÑAMIENTO DEL SOLO DE ACORDEÓN O BANDONEÓN:
G|------------------------------------------------------------------
D|------------------------------------------------------------------
A|---------------------------------0-0-0-0h2-2-2-2------------------
E|/0-0-0-0-0-0-0-0-4-4-4-4-4-4-4-4-----------------0-0-0-0-0-0-0-0--


>LETRA:
"Miro para afuera y veo todo bien
como si estuviera anestesiado
todos esos enemigos que inventé
desaparecieron de mi lado

Creo que estoy muerto pero no lo sé
no era como había imaginado
no siento los ojos pero puedo ver
no distingo la risa del llanto

Como un reflejo
en tus ojos voy a descansar
Yo te protejo
yo te cuido vos seguí nomás

Miro para fuera y veo todo bien
Como si estuviera anestesiado

Algo que me pasa y que debés saber
es que no estoy triste ni asustado
no puedo tocarte ya no tengo piel
pero no me muevo de tu lado

Miro para fuera y veo todo bien
Como si estuviera anestesiado"
Aviso: Este fichero es trabajo propio de su transcriptor y representa su interpretación personal de la canción. El material contenido en esta página es para exclusivo uso privado, por lo que se prohibe su reproducción o retransmisión, así como su uso para fines comerciales.

Califica esta canción


Comentarios en Facebook