Enviado por:
f-chito14

Marcos Barrientos, Alza Tus Ojos

 
E-------0-------------0------------
B-------1-------------1------------
G----2-------2-0--1-2--------------
D----------------------------------
A----------------------------------
E----------------------------------

E---------------------0------------
B---------------------1------------
G-----------2-0--1-2---------------
D----------------------------------
A----------------------------------
E----------------------------------

E----------------------------------
B----------------------------------
G-----------2-0--1-2---------------
D----------------------------------
A----------------------------------
E----------------------------------

  Am            F      C              E      
Alza tus ojos y mira, la cosecha esta lista,
    Am        G        F         E
el tiempo ha llegado, la mies esta madura.
        Am            F      C              E      
Esfuérzate y se valiente, levántate y predica,
        Am        G        F         E
a todas las naciones que Cristo es la vida.

                    CORO

           F-G           Mi            Lam
      /Y será...llena la tierra de su gloria,
                F-G         Mi           Lam
       te cubrirá...como las aguas cubre la mar/

E                   Am-E             Am-Dm Am       F        E
No no hay otro nombre dado a los hombres Jesucristo es el señor
                   Coro
           F-G           Mi            Lam
      /Y será...llena la tierra de su gloria,
                F-G         Mi           Lam
       te cubrirá...como las aguas cubre la mar/


E-------0-------------0------------
B-------1-------------1------------
G----2-------2-0--1-2--------------
D----------------------------------
A----------------------------------
E----------------------------------

E---------------------0------------
B---------------------1------------
G-----------2-0--1-2---------------
D----------------------------------
A----------------------------------
E----------------------------------

E----------------------------------
B----------------------------------
G-----------2-0--1-2---------------
D----------------------------------
A----------------------------------
E----------------------------------

 
Aviso: Este fichero es trabajo propio de su transcriptor y representa su interpretación personal de la canción. El material contenido en esta página es para exclusivo uso privado, por lo que se prohibe su reproducción o retransmisión, así como su uso para fines comerciales.
comentario del colaborador: es la primera transcripcion que hago si hay algun error me avisan Dios lo bendiga un saludo para los musicos de la iglecia pentecostal unida de colombia central ibagué

Califica esta canción


Comentarios en Facebook