Enviado por:
chikgp

Andres Calamaro, Flaca

Este es el punteo de la introducción 

6|----------------------------------------------------------
5|----------------------------------------------------------
4|----------------------------------------------------------
3|------------------12--------------------------------------
2|-------12---10---------10---12----------------------------
1|--10------------------------------11----------------------


6|----------------------------------------------------------
5|----------------------------------------------------------
4|----------------------------------------------------------
3|----------------12----------------------------------------
2|--12---10--------------10---12----------------------------
1|--------------------------------------12------------------


6|----------------------------------------------------------
5|----------------------------------------------------------
4|----------------------------------------------------------
3|----------------12----------------------------------------
2|--12---10--------------12---10----------------------------
1|--------------------------------------10------------------


6|----------------------------------------------------------
5|----------------------------------------------------------
4|----------------------------------------------------------
3|---------------------------------12-----------------------
2|--13---13---12--------12---10---------10---12-------------
1|-----------------10------------------------------10-------


6|----------------------------------------------------------
5|----------------------------------------------------------
4|----------------------------------------------------------
3|--------------12------------------------------------------
2|--12---10-------------------------------------------------
1|----------------------------------------------------------
Aviso: Este fichero es trabajo propio de su transcriptor y representa su interpretación personal de la canción. El material contenido en esta página es para exclusivo uso privado, por lo que se prohibe su reproducción o retransmisión, así como su uso para fines comerciales.
comentario del colaborador: Comenten!

Califica esta canción


Comentarios en Facebook