Enviado por:
jesus enrique palma montejo

Enanitos Verdes, Tu Carcel




e/-0/2-2-0---------2-2---0-0-----------0----------/
B/---------3-3-3-3-----3-----3-2-2-2-2---2-3-3-2-0/
G/------------------------------------------------/
D/------------------------------------------------/
A/------------------------------------------------/
E/------------------------------------------------/

e/--------------------/
B/-0-0-0-0-2-3-2-3/5-5/
G/--------------------/
D/--------------------/
A/--------------------/
E/--------------------/

e/-0/2-2-0---------2-2---0-0-----------0----------/
B/---------3-3-3-3-----3-----3-2-2-2-2---2-3-3-2-0/
G/------------------------------------------------/
D/------------------------------------------------/
A/------------------------------------------------/
E/------------------------------------------------/

e/--------------------/
B/-0-0-0-0-2-3-2-3/5-5/
G/--------------------/
D/--------------------/
A/--------------------/
E/--------------------/


     D
Te vas amor
 
Si así lo quieres
      A
Que puedo yo hacer,
                   B
Tu vanidad no te deja entender 
  G                   A
Que en la pobreza se sabe querer. 
     D
Y quiero llorar,
                    A 
Y me destroza que pienses así
                     B
Y más que ahora me quede sin ti
 G                         A
Me duele lo que tú vas a sufrir. 
  D 
Pero recuerda
 
Nadie es perfecto
   A 
Y tu lo veras
                   B 
Más de mil cosas mejores tendrás
 G                    A
Pero cariño sincero jamás. 
 D
Vete olvidando
                         A 
De esto que hoy dejas y que cambiarás
                     B 
Por la aventura que tu ya veras
 G                      A 
Será tu cárcel y nunca saldrás. 

e/-0/2-2-0---------2-2---0-0-----------0----------/
B/---------3-3-3-3-----3-----3-2-2-2-2---2-3-3-2-0/
G/------------------------------------------------/
D/------------------------------------------------/
A/------------------------------------------------/
E/------------------------------------------------/

e/--------------------/
B/-0-0-0-0-2-3-2-3/5-5/
G/--------------------/
D/--------------------/
A/--------------------/
E/--------------------/

 D
Quiero llorar
                   A
Y me destroza que pienses así
                     B 
Y más que ahora me quede sin ti
     G                      A 
Me duele lo que tú vas a sufrir... 
  D
Pero recuerda
  
Nadie es perfecto
   A
Y tu lo veras
                    B 
Más de mil cosas mejores tendrás
 G                    A 
Pero cariño sincero jamás. 
  D
Vete olvidando
                         A
De esto que hoy dejas y que cambiarás 
                     B
Por la aventura que tu ya veras
 G                        A 
Será tu cárcel y nunca saldrás.


YA ME ABURRI LUEGO LES SUBO EL SOLO
Aviso: Este fichero es trabajo propio de su transcriptor y representa su interpretación personal de la canción. El material contenido en esta página es para exclusivo uso privado, por lo que se prohibe su reproducción o retransmisión, así como su uso para fines comerciales.

Califica esta canción


Comentarios en Facebook