Enviado por:
char1234

Canciones Populares , Navidad

Imprimir
          ,       ,          ,       ,       ,                                                                                  1)------------------------------------------------------------/
2)--0-0-0---0-0-0---0-3-----0---1-1-1---0-0-0---0------0---3-/
3)----------------------0-2------------------------2-2---2--/

         ,        ,            ,             ,                                                                                  1)----------------------------------------------------------/
2)--0-0-0---0-0-0---0-3------0---1-1-1-0-0-0---3-3-1-------/
3)----------------------0-2---------------------------2-0-/


1)-----------------------/----------------------------------/
2)---------0------------/-------0--------------------------/
3)------------2-0------/-----------2-0--------------------/
4)--0-0-0----------0--/--0-0-0---------2-----------------/


1)----------------------0----------------------------------/
2)---------1-0-----3-3----3-1-----------------------------/
3)--------------2--------------2-0-----------------------/
4)--2-2-2-----------------------------------------------/



1)-----------------------/----------------------------------/
2)---------0------------/-------0--------------------------/
3)------------2-0------/-----------2-0--------------------/
4)--0-0-0----------0--/--0-0-0---------2-----------------/



1)----------------------0----------------------------------/
2)---------1-0-----3-3----3-1-----------------------------/
3)--------------2--------------2-0-----------------------/
4)--2-2-2-----------------------------------------------/


           ,       ,          ,       ,       , 
                                                                                                                               1)------------------------------------------------------------/
2)--0-0-0---0-0-0---0-3-----0---1-1-1---0-0-0---0------0---3-/
3)----------------------0-2------------------------2-2---2--/




           ,      ,             ,            ,                                                                                  

1)----------------------------------------------------------/
2)--0-0-0---0-0-0---0-3------0---1-1-1-0-0-0---3-3-1-------/
3)----------------------0-2---------------------------2-0-/






Aviso: Este fichero es trabajo propio de su transcriptor y representa su interpretación personal de la canción. El material contenido en esta página es para exclusivo uso privado, por lo que se prohibe su reproducción o retransmisión, así como su uso para fines comerciales.

Califica esta canción


Comentarios en Facebook