Enviado por:
santiagof

No Te Va Gustar, Mucho Mas Feliz

 Intro:
                D      C             G           
E--------------------------------------------------------
B-0-0-1-3-3-5-5-7--8-7-7-5-5-5-5-7-5-5-3-3--8-7-8-10-10--
G-0-0-2-4-4-5-5-7--9-7-7-5-5-5-5-7-5-5-4-4--9-7-9-11-11--
D--------------------------------------------------------
A--------------------------------------------------------
E--------------------------------------------------------
    D      C             G
E--------------------------3--5-7------------------------
B-8-7--8-7-7-5-5-3-3-1-1-0-------------------------------
G-9-7--9-7-7-5-5-4-4-2-2-0---5-7-------------------------
D--------------------------------------------------------
A--------------------------------------------------------
E--------------------------------------------------------

                   D
Con una cruz en la mano
C                G
Has venido hasta Mi 
                D
Si el diablo me llama,
C               G
no lo voy a seguir
                  D
si el diablo me llamaii
C               G
no lo voy a seguir

                        D
De los mundos que se hicieron
C               G
en el tercero nací
       	            D
pero eso ni me preocupa
D                   G
yo soy mucho mas feliz.
		    D
Pero eso no me preocupaii
C                  G
Yo soy mucho mas feliz

Intro

                   C 
Con una cruz en la mano
       G
Haz venido hasta Mi 
D       C            G
[yo soy mucho mas feliz]
		    C
Si el diablo me llamaii

      G
no lo voy a seguir
D       C            G
[yo soy mucho mas feliz]
                    C
De los mundo que se hicieron

          G
En el tercero nací

D       C            G
[yo soy mucho mas feliz]
                   C
Pero eso ni me preocupa
                   G
Eso a mi no me preocupa
D       C            G
[yo soy mucho mas feliz]


C G D C G x5

 D      C           G     
Yo soy mucho mas feliz

D  G


el bajo lo que hace es: en G A------2----5- x4
                             E-3-----------

                        en D D------4----7- x2
                             A-5-----------
                        
                        en C D------2----5- x2
                             A-3-----------






 
Aviso: Este fichero es trabajo propio de su transcriptor y representa su interpretación personal de la canción. El material contenido en esta página es para exclusivo uso privado, por lo que se prohibe su reproducción o retransmisión, así como su uso para fines comerciales.
comentario del colaborador: cualquier duda mi msn es [email protected] saludos!

Califica esta canción


Comentarios en Facebook