Enviado por:
Languasquito17

Enanitos Verdes, Tu Carcel

Esta es "tu carcel" una version que me enseño un profesor... 
ahi vaa..


1º)
-3-3-1-0--8-8-10-12-12-8-10-10-8-7--7-7-8-10-10-7-8-8-7----
--------------------------------------------------------10-
-----------------------------------------------------------
-----------------------------------------------------------

aca siguee...ojo que es todo seguidoo

2º)
-8-8-8-8-7-----------7-------------------------------------
-----------10-8-8-10---------------------------------------
-----------------------------------------------------------
-----------------------------------------------------------

y despues van esas dos tablaturas de arriba otra vez pero cuando terminas la de abajo haces esto...

3º)
-8-8-10-12-12--8-8-10-12-12-8-10-10-8-7--7-7-8-10-10-7-8-8-7----
-------------------------------------------------------------10-
----------------------------------------------------------------
----------------------------------------------------------------

mas abajo les dejo como queda completo


-3-3-1-0--8-8-10-12-12-8-10-10-8-7--7-7-8-10-10-7-8-8-7----
--------------------------------------------------------10-
-----------------------------------------------------------
-----------------------------------------------------------

-8-8-8-8-7-----------7-------------------------------------
-----------10-8-8-10---------------------------------------
-----------------------------------------------------------
-----------------------------------------------------------

-3-3-1-0--8-8-10-12-12-8-10-10-8-7--7-7-8-10-10-7-8-8-7----
--------------------------------------------------------10-
-----------------------------------------------------------
-----------------------------------------------------------

-8-8-8-8-7-----------7-------------------------------------
-----------10-8-8-10---------------------------------------
-----------------------------------------------------------
-----------------------------------------------------------

-8-8-10-12-12--8-8-10-12-12-8-10-10-8-7--7-7-8-10-10-7-8-8-7----
-------------------------------------------------------------10-
----------------------------------------------------------------
----------------------------------------------------------------


y bueno asi queda un punteado muy buenoo...es facil de aprenderr..y espero que les sirva a los que esten buscando esta tablatura! enserio es facil si la van haciendo de a poco

Aviso: Este fichero es trabajo propio de su transcriptor y representa su interpretación personal de la canción. El material contenido en esta página es para exclusivo uso privado, por lo que se prohibe su reproducción o retransmisión, así como su uso para fines comerciales.
comentario del colaborador: chauu suertee

Califica esta canción


Comentarios en Facebook