Enviado por:
santi06

Andres Calamaro, Flaca

-------------------------------------------
-3--0---------4--0---------5--0---------3--
------2-0-2-0------2-0-2-0------2-0-2-0----
-------------------------------------------
-------------------------------------------
-------------------------------------------

------------------------------------
-1-1--0-3--0---------3----0---------
-------------2-0-2-0--------2-0-----
------------------------------------
------------------------------------
------------------------------------
Aviso: Este fichero es trabajo propio de su transcriptor y representa su interpretación personal de la canción. El material contenido en esta página es para exclusivo uso privado, por lo que se prohibe su reproducción o retransmisión, así como su uso para fines comerciales.

Califica esta canción


Comentarios en Facebook