Enviado por:
anthonyhaw1

Sin Bandera, Te Vi Venir

                                         Dedicada la Mujer mas
                                         BELLA De ste mundO
                                         TE ADORO!!
LA CANCION:

  1. DEBEN TOMAR ESTO EN CUENTA PARA QUE ENTIENDAN MEJOR MI
EXPLICACION DE LA CANCION!!

 (z--z) ;Indica los espacios de la cancion donde no tocaremos
         la guitarra.
 (*>)   ;Indica INICIO del rasgueo en la cancion.

 (*<)   ;Indica el FINAL del rasgueo en la cancion.

 (Ra)  ;Rasgueo hacia arriba.

 (Pr)   ;presionar las cuerdas y dejarlas sonar al aire.
       NOTA: EN CASI toda su totalidad, la cancion se toca
             Presionando las cuerdas y soltandolas al aire.

INTRO Y FORMA DE TOCAR CASI TODA LA CANCION.. TOMANDO EN CUENTA
LAS PARTES DE RASGUEO!

     A1=La1          B=Si            A2=La2      B/G# = Si/Sol#

  Pr Ra Pr  Ra    Pr Ra Pr  Ra   Pr Ra Pr  Ra     Pr Ra Pr  Ra
E--------------|>-4-----4---4/-|>-2--2--2---2/-|>--4-----4---4/|
A-0-----0---0/-|>-----------0/-|>-----------0/-|>------------0/|
D-----------2/-|>-4--4--4---4/-|>-2--2--2---2/-|>--4--4--4---4/|
G-4--0--4---4/-|>-4--4--4---4/-|>-2--2--2---2/-|>--4--4--5---5/|
B-0--0--0---0/-|>-4--4--4---4/-|>-2--2--2---2/-|>--4--4--4---4/|
e-0--0--0---0/-|>--------------|>--------------|>--------------|


  Pr Ra Pr  Ra    Pr Ra Pr  Ra   Pr Ra Pr  Ra     Pr Ra Pr  Ra
E>-------------|>-4-----4---4/-|>-2--2--2---2/-|>--4-----4---4-|
A>0-----0---0/-|>-----------0/-|>-----------0/-|>------------0-|
D>----------2/-|>-4--4--4---4/-|>-2--2--2---2/-|>--4--4--4---4-|
G>4--0--4---4/-|>-4--4--4---4/-|>-2--2--2---2/-|>--4--4--5---5-|
B>0--0--0---0/-|>-4--4--4---4/-|>-2--2--2---2/-|>--4--4--4---4-|
e>0--0--0---0/-|>--------------|>--------------|>--------------|
N O O O o o o o n o o o o i o u u o O O o o o u o o o O o o...


  A1          
Aún ni siquiera te tengo
            B
y ya tengo miedo de perderte, amor

   A2         
qué rápido se me ha clavado
   B                G#
qué dentro todo este dolor.


 A1
Es poco lo que te conozco
           B
y ya pongo todo el juego a tu favor
 A2
no tengo miedo de apostarte,
  B              G#
perderte sí me da pavor.


 A1                               B  
No me queda más refugio, que la fantasiía.
 A2
no me queda más que hacer,
                  B/G#  
que hacerte una poesía.
*>A1
Porque te vi venir y no dudé
  B                     <*
te vi llegar, y te abracé
  A2 (z-----------------------------z)*> B/G#
y puse toda mi pasión para que te quedaras

         A1                            B
y luego te besé y me arriesgué con la verdad
                A2                        (z-------------z)
te acaricié y al fin.. abrí mi corazón para que tú pasaras.
     B/G#
noooooooooooo
uhhh
  A1  (z--------------------------------------z) B/G#
Mi amor te di sin condición para que te quedaras.


     A1                             
Ahora esperaré algunos días para ver
        B
si lo que te di fue suficiente
  A2
no sabes qué terror se siente
       B            G#
la espera cada madrugada
   A1    
si tú ya no quisieras volver
                B
se perdería el sentido del amor por siempre
 A2
no entendería ya este mundo
     B              G#
me alejaría de la gente.

  A1                               B         B/B#
No me queda más refugio, que la fantasiiíiaaa
 A2
no me queda más que hacer
                   B/G#
que hacerte una poesía.
*>A1
Porque te vi venir y no dudé
  B                     <*
te vi llegar y te abracé
  A2   (z---------------------------z)*>   B/G#
y puse toda mi pasión para que te quedaras 0hh
         A1                            B
y luego te besé y me arriesgué con la verdad
                A2                          (.........z)  <*B/G#
te acaricié y al fin abrí mi corazón para que tú pasaras.  OOHHH

 A1 (z---------------------------------------z)  B/G#
Mi amor te di sin condición para que te quedaras. ohhmmm

   A2                                           B/G#
Mi amor te di sin condición para que te quedaras. uhhhhhhhhh

A1 (z------------------------------------------------z)
Mi amor te di sin condició0oon.. para que te quedaaarassss...
  (Final)
E>-0-------|
A>--0------|
D>---2-----|
G>----4----|
B>-----0---|
e>------0--|


ACORDES:
  A1       B       A2       B/ G      B/B#
E--x---|---4---|---2---|>---4/-4--|---4/-3---|
A--0---|---0---|---0---|>---0/-0--|---0/-0---|
D--2---|---4---|---2---|>---4/-4--|---4/-3---|
G--4---|---4---|---2---|>---4/-5--|---4/-3---|
B--0---|---4---|---2---|>---4/-4--|---4/-3---|
e--0---|---x---|---x---|>---x--x--|---x--x---|

Otra Fuente:
http://es.youtube.com/watch?v=rthhlqWqQN8 

Ahy veran el video de Sin Bandera Te vi venir version Acustico,
Q tambien les servira de mucho para llevar el ritmo de la cancion! SOn los Mismos ACORDES"

Dejen sus Comentarios se los agradecere!!!! bye
Aviso: Este fichero es trabajo propio de su transcriptor y representa su interpretación personal de la canción. El material contenido en esta página es para exclusivo uso privado, por lo que se prohibe su reproducción o retransmisión, así como su uso para fines comerciales.
comentario del colaborador: UN VIDEO DE SIN BANDERA EN VIVO. http://es.youtube.com/watch?v=rthhlqWqQN8

Califica esta canción


Comentarios en Facebook