Enviado por:
el puma gris 050

Musica De Tv, El Padrino

En algunas partes que se tocan 3 o más cuerdas juntas yo recomiendo un rasguito simple de la 6ª a la 1ª!!!

e /---0-3---2---0-3-0-2-0--------------------------/---0-3—2--0-3-0--2--0--------------------/
B /-0-------0----------1-----1—3—0-------------/-0-------0-----------0----0------------------/
G /---------0-----------2------------0----0---0----/----------0-----------0------3--2------------/
D /-------------------------------------------2------/------------------------------------2---2-----/
A /---------------------0----------------------------/----------------------------------0---3---0---/
E /---------0-------------------------0-----------0-/----------0-----------3------------------------/


/-----------2-------------------------0----------------/------------------------------/------------------/
/----1--4--1------------------1--4--0--0-----0------/--------3--1---0--3--1--1--/0-0------0---0--/
/-2---------2--2----2-----2---------0-----0---------/-----0------0-------------2--/------------0----/
/-----------------2------------------------------------/--2---------2-------------2--/-----1-2---------/
/------------0----------0-----------------------------/-------------2-------------2--/------------------/
/-------------------------------------0------------0--/-------------------------------/--------0-------0/

/----------------------2---0----------------------/------------------------------------------------/
/-5-5-4-3---------------------1---0-------------/--0-3-0-------------------1----0--------------/
/------------2-----2--0---------------0---0-----/----------2--------------2---3--2--2---2------/
/---------0-----4------------------------0-------/--------------3---3-------------1-----1--------/
/---------------------------3---0----------------/-----------1----3----------------2----------2--/
/-----------------------------------3----------3-/-----------------------1------------------------/

/-----------/--0-----------3------------7------------12----/
/--0-0-4--/------0---0------5---5--------8----8----0----/
/-------2--/--------0-----------4-------------9-------0---/
/-------4--/------------------------------------------------/
/-------2--/------------------------------------------------/
/----------/---0-----------0------------0-------------0---/


SUERTE!!!
Aviso: Este fichero es trabajo propio de su transcriptor y representa su interpretación personal de la canción. El material contenido en esta página es para exclusivo uso privado, por lo que se prohibe su reproducción o retransmisión, así como su uso para fines comerciales.

Califica esta canción


Comentarios en Facebook