Enviado por:
fera15

Jesse & Joy, Ya No Quiero

Imprimir
Intro:

  G       C  Em      D
6:------------|-----------|
5:------------|-----------|
4:------------|-----------|
g:------------|-----------|
b:---3-----3--|---3-----3-|
e:-3---3-3----|-3---5-5---|

  G       C  Em      D
6:------------|-----------|---|
5:------------|-----------|---|
4:------------|-----------|---|
g:------------|-----------|---|
b:---3-----3--|---3-----3-|---|
e:-3---3-3----|-3---5-5---|-3-|

G        C            Em    D
Tantas bellas palabras
     G       C Em   D
que me decías
G        C       Em   D
tonta y enamorada
    G        C   Em   D
ya me tenias

G     C          Em   D
Tus caricias vacías
 G        C   Em   D
me las creía
G       C            Em   D
de tus besos y abrazos
    G    C   Em   D
me derretía.

C
Me engañaste y dejaste
                            G
Lastimaste a mi pobre corazón

Coro:
         B           C            F
YA NO QUIERO VER TÚ FOTO EN MI BURÓ
 G              B         C             F
VETE QUE YA TE TENGO OLVIDADO EN UN CAJÓN
   G           B             C
Y TODO ESTE TIEMPO TE HE MENTIDO
          Cm
PUES TUS BESOS NO SON LO MEJOR


  G       C  Em      D
6:------------|-----------|
5:------------|-----------|
4:------------|-----------|
g:------------|-----------|
b:---3-----3--|---3-----3-|
e:-3---3-3----|-3---5-5---|

  G       C  Em      D
6:------------|-----------|---|
5:------------|-----------|---|
4:------------|-----------|---|
g:------------|-----------|---|
b:---3-----3--|---3-----3-|---|
e:-3---3-3----|-3---5-5---|-3-|

G      C           Em   D
Me propuse olvidar
    G    C   Em   D
y madurar
G     C         Em D
Volveré a empezar
G              C   Em  D
y lo voy a lograr

C
Te dejé en el pasado
                          G
Has quedado olvidado corazón

Coro
         B           C            F
YA NO QUIERO VER TÚ FOTO EN MI BURÓ
 G              B         C             F
VETE QUE YA TE TENGO OLVIDADO EN UN CAJÓN
   G           B             C
Y TODO ESTE TIEMPO TE HE MENTIDO
          Cm
PUES TUS BESOS NO SON LO MEJOR

Solo:

  2:34                   2:38                       2:42
  Em                A     C                     B
6:-----------------------|-------------------------|--------------------|
5:-----------------------|-------------------------|--------------------|
4:-----------------------|-------------------------|--------------------|
g:-/9---9---------9-9--9-|-/9---9---------9-9-9/11-|--------------9-7/9-|
b:----8---8-----8-----8--|----8---8-----8----------|-------10-8-7-------|
e:----------6/7----------|----------6/7------------|-7-8-7--------------|

  2:43                    2:46
  Em                   A
6:-----------------------|----------------------|
5:-----------------------|----------------------|
4:-----------------------|----------------------|
g:-/9---9---------9-9--9-|----------------------|
b:----8---8-----8----8---|-8h10—---8/10-10-10-10|
e:----------6/7----------|------7--8/10-10-10-10||


  2:48
  C                   B–B  - B-B  -  B-B
E:----------------------------------------|
A:----------------------------------------|
D:----------------------------------------|
g:-9---9-----------9----------------------|
b:---8---8---10-8----12-12---12-12---12-12|
e:---------7---------11-11---11-11---11-11|

                   G
No, no, no, no, nooooo....!!!!

Coro
         B           C            F
YA NO QUIERO VER TÚ FOTO EN MI BURÓ
 G              B         C             F
VETE QUE YA TE TENGO OLVIDADO EN UN CAJÓN
   G           B             C
Y TODO ESTE TIEMPO TE HE MENTIDO
          Cm
PUES TUS BESOS NO SON LO MEJOR

Aviso: Este fichero es trabajo propio de su transcriptor y representa su interpretación personal de la canción. El material contenido en esta página es para exclusivo uso privado, por lo que se prohibe su reproducción o retransmisión, así como su uso para fines comerciales.

Califica esta canción


Comentarios en Facebook