Enviado por:
yisus

Musica De Tv, Titanic

e--0h2-2h4-4s5s4-0-2-7^---4--2-0----------------------
B--------------------------------0-0s2-0--------------
G-----------------------------------------------------
D-----------------------------------------------------
A-----------------------------------------------------
E-----------------------------------------------------

e--0h2-2h4-4s5s4-0-2-7^---5--7--9--7--2s4-2-----------
B-----------------------------------------------------
G-----------------------------------------------------
D-----------------------------------------------------
A-----------------------------------------------------
E-----------------------------------------------------

e-12-12-12-12-11-12-12-11-12-12-14-12-----------------
B-----------------------------------------------------
G-----------------------------------------------------
D-----------------------------------------------------
A-----------------------------------------------------
E-----------------------------------------------------

e-12-12-12-12-11-12-14-7------------------------------
B-----------------------------------------------------
G-----------------------------------------------------
D-----------------------------------------------------
A-----------------------------------------------------
E-----------------------------------------------------
 jajaj  =p
Aviso: Este fichero es trabajo propio de su transcriptor y representa su interpretación personal de la canción. El material contenido en esta página es para exclusivo uso privado, por lo que se prohibe su reproducción o retransmisión, así como su uso para fines comerciales.

Califica esta canción


Comentarios en Facebook