Enviado por:
Anonimo

Andres Calamaro, Flaca

INTRO:

e |------------------------------------------------------------------------|
B |--------------------------5---------------------------------------------|
G |--7--4------4-8--4------4----4-------4-7-5-5---4-7--4-------4-7---4-----|
D |------7-5-7-------7-5-7-------7-5-7------------------7-5-7----------5-5-|
A |------------------------------------------------------------------------|
E |------------------------------------------------------------------------| 

FINAL:
       
e |------------------------------------------------------------------------|
B |-----------------5--4-----7--5------------------------------------------|
G |-----------5--4---------4------------4-7----4----4-7----4---------------|
D |-----4-5-7-----------------------5-7----------5-----------5-5-----------|
A |-5-7--------------------------------------------------------------------|
E |------------------------------------------------------------------------| 

Recomendación: Hacer Vibratos en las notas que necesiten alargar
el sonido. Si conoceis la cancion sabreis donde hay que hacerlo.
**************************************************************************** 


- Aqui se toca la INTRO


SOL          SI7
Flaca, no me claves
      mi             DO
tus puñales por la espalda,
    SOL             RE
tan profundo, no me duelen,
            SOL     RE
no me hacen mal.

Lejos, en el centro
de la tierra, las raices
del amor donde estaban
quedarán.

SOL                    SI7
Entre no me olvides me dejé nuestros abriles
    mi                       DO
olvidados en el fondo del placard
                  SOL                   RE
del cuarto de invitados, eran tiempos dorados,
            SOL     RE
un pasado mejor.

Aunque casi me equivoco y te digo poco a poco
no me mientas, no me digas la verdad,
no te quedes callada, no levantes la voz,
ni me pidas perdon.

Aunque casi te confieso que tambien he sido un perro
compañero, un perro ideal
que aprendio a ladrar y a volver al hogar
para poder comer.

Flaca, no me claves
tus puñales por la espalda,
tan profundo, no me duelen,
no me hacen mal.

Lejos, en el centro
de la tierra, las raices
del amor donde estaban
quedaran.

- Vuelve a tocarse la INTRO
- Se toca el FINAL 4 veces seguidas.

Fuente original: LaCuerda
Colaborador original: Fabrizio Carbonel [[email protected]]
Aviso: Este fichero es trabajo propio de su transcriptor y representa su interpretación personal de la canción. El material contenido en esta página es para exclusivo uso privado, por lo que se prohibe su reproducción o retransmisión, así como su uso para fines comerciales.

Califica esta canción


Comentarios en Facebook