Enviado por:
ralmeida

Jesse & Joy, Ya No Quiero

 JESSE Y JOY
YA NO QUIERO


G/G*                 G/D*
Tantas bellas palabras
G/G*                 G/D*
que me decías
G/G*                 G/D*
tonta y enamorada
G/G*                 G/D*
ya me tenias

G/G*                 G/D*
Tus caricias vacías
G/G*                 G/D*
me las creía
G/G*                 G/D*
de tus besos y abrazos
G/G*                 G/D*
me derretía.

G               B*
Me engañaste y dejaste
G               B*          G
Lastimaste a mi pobre corazón...

Coro:
         B7          C*          C
Ya no quiero ver tu foto en mi buro
 G              B7        C*            C
vete que ya te tengo olvidado en un cajon
  G           B7             C*
y todo este tiempo te he mentido
          Cm
pues tus besos no son lo mejor


  G    G*     G    D*     G    G*     G    D*      G
6|-----------|-----------|-----------|-----------|---|
5|-----------|-----------|-----------|-----------|---|
4|-----------|-----------|-----------|-----------|---|
3|-----------|-----------|-----------|-----------|---|
2|---3-----3-|---3-----3-|---3-----3-|---3-----3-|---|
1|-3---3-3---|-3---5-5---|-3---3-3---|-3---5-5---|-3-|


G/G*               G/D*
Me propuse olvidar
G/G*               G/D*
y madurar
G/G*               G/D*
Volveré a empezar
G/G*               G/D*
lo voy a lograr

G               B*
Te dejé en el pasado
G               B*           G
Has quedado olvidado corazón...

Coro
         B7           C*          C
Ya no quiero ver tu foto en mi buro
 G              B7        C*            C
vete que ya te tengo olvidado en un cajon
   G           B7             C*
y todo este tiempo te he mentido
          Cm
pues tus besos no son lo mejor

Solo:

   G               Am     C                 B7
6|----------------------|------------------------|--------------------|
5|----------------------|------------------------|--------------------|
4|----------------------|------------------------|--------------------|
3|-9---9---------9-9--9-|-9---9---------9-9-9/11-|--------------9-7/9-|
2|---8---8-----8-----8--|---8---8-----8----------|-------10-8-7-------|
1|---------6/7----------|---------6/7------------|-7-8-7--------------|

   G                Am                          C
6|----------------------|----------------------|------------------|
5|----------------------|----------------------|------------------|
4|----------------------|----------------------|------------------|
3|-9---9---------9-9--9-|----------------------|-9---9----------9-|
2|---8---8-----8----8---|-8h10—---8/10-10-10-10|---8---8---10-8---|
1|---------6/7----------|------7--8/10-10-10-10|---------7--------|

   B7
6|---------------------|
5|---------------------|
4|---------------------|
3|---------------------|
2|-12-12--12-12--12-12-|
1|-11-11--11-11--11-11-|


                       G
No, no, no, no, nooooo...

Coro
         B7           C*          C
Ya no quiero ver tu foto en mi buro
 G              B7        C*            C
vete que ya te tengo olvidado en un cajon
   G           B7             C*
y todo este tiempo te he mentido
          Cm
pues tus besos no son lo mejor

 
Aviso: Este fichero es trabajo propio de su transcriptor y representa su interpretación personal de la canción. El material contenido en esta página es para exclusivo uso privado, por lo que se prohibe su reproducción o retransmisión, así como su uso para fines comerciales.
comentario del colaborador: http://lacuerda.net/tabs/j/jesse_y_joy/ya_no_quiero-3.shtml

Califica esta canción


Comentarios en Facebook