Enviado por:
ruben

Marcos Barrientos, Solo A Ti

Imprimir
Intro & Verse: 
----------------------------------
---3--3---3--3---2-0-2--0--0------
--4--4---2--2---2------1--1-------
-4--4---4--4---2-2----2--2--------
----------------------------------
----------------------------------

---------------------------------0-
-----3-2-3--3--3---2--0-2-----0----
----4------2--2---2-------2--1--1--
-2s4------4--4---2--2-------2--2---
-----------------------------------
-----------------------------------

------------------------------0---
---3-2-3---3--3---2-0-2----0------
--4-------2--2---2-----2--1--1----
-4--4----4--4---2--2-----2--2-----
----------------------------------
----------------------------------

---------------0------------------
---3-2-3---3------2-0-2----0--0---
--4-------2--2---2-----2--1--1----
-4--4----4--4---2--2-----2--2-----
----------------------------------
----------------------------------
Someto cierto delay y utilizar el 3er puente de pickup

Instrumental: Heavy overdrive y delay
-12-12------------------------------
------12-12-12-12-14-14-15-15-14h15-
------------------------------------
------------------------------------
------------------------------------
------------------------------------

-----------------------------------
-15-15-15-17-15-12-14b15r14--12-10-
-----------------------------------
-----------------------------------
-----------------------------------
-----------------------------------

------------12-14-16-17-17-19-19---
-12b14r12--------------------------
-----------------------------------
-----------------------------------
-----------------------------------
-----------------------------------

-19-19b20r19-17-19--17--17-19b20r19-
------------------19----------------
------------------------------------
------------------------------------
------------------------------------
------------------------------------

-17--19---17-16-17-19-19---15p14p12-
-------19---------------------------
------------------------------------
------------------------------------
------------------------------------
------------------------------------
Aviso: Este fichero es trabajo propio de su transcriptor y representa su interpretación personal de la canción. El material contenido en esta página es para exclusivo uso privado, por lo que se prohibe su reproducción o retransmisión, así como su uso para fines comerciales.

Califica esta canción


Comentarios en Facebook