Enviado por:
djkikeone

Jesse & Joy, Ya No Quiero

 ACORDES:> G C D B F D# A 

G                    E
Tantas bellas palabras
     C        E
que me decías
C              E   D
tonta y enamorada
    C       E
ya me tenias
                                   riff 1
C                  E
Tus caricias vacías
 C            B
me las creía
C                     E
de tus besos y abrazos
    C         E
me derretía.
                                   riff 2
C
Me engañaste y dejaste
                            G
Lastimaste a mi pobre corazón

Coro:
         B           C            G
Ya no quiero ver tu foto en mi buró
 G              B         C             F
Vete que ya te tengo olvidado en un cajón
   G           B             C
Y todo este tiempo te he mentido
          D#                 G
Pues tus besos no son lo mejor.

   G   D   G   D

E:------------|-----------|
A:------------|-----------|
D:------------|-----------|
G:------------|-----------|
B:---3-----3--|---3-----3-|
E:-3---3-3----|-3---5-5---|


G                E
Me propuse olvidar
    C     E
y madurar
G                 B
Volveré a empezar
C                 G
y lo voy a lograr

C
Te dejé en el pasado
                          G
Has quedado olvidado corazón

Coro


         B           C            G
Ya no quiero ver tu foto en mi buró
 G              B         C             G
Vete que ya te tengo olvidado en un cajón
   G           B             C
Y todo este tiempo te he mentido
          D#                E
Pues tus besos no son lo mejor.

Solo:



      E    A    C    B    E    A    C    B    G    B    C

E:-----------------------|-------------------------|--------------------|
A:-----------------------|-------------------------|--------------------|
D:-----------------------|-------------------------|--------------------|
G:-/9---9---------9-9--9|-/9---9---------9-9------|--------------9-7/9-|
B:----8---8-----8-----8--|----8---8-----8----/7----|-------10-8-7-------|
E:----------5/7----------|----------5/7------------|-7-8-7--------------|



E:-----------------------|-----------------------|
A:-----------------------|-----------------------|
D:-----------------------|-----------------------|
G:-/9---9---------9-9--9|-----------------------|
B:----8---8-----8-----8--|-8h10—---8/10-10-10-10|
E:----------5/7----------|------7--8/10-10-10-10|



                     BB  - B-B  -  B-B
E:-----------------------------------------|
A:-----------------------------------------|
D:-----------------------------------------|
G:-/9---9-----------9----------------------|
B:----8---8---10/8----12-12---12-12---12-12|
E:----------7---------11-11---11-11---11-11|

                   G
No, no, no, no, nooooo....!!!!

Coro

         B           C            G
Ya no quiero ver tu foto en mi buró
 G              B         C             G
Vete que ya te tengo olvidado en un cajón
   G           B             C
Y todo este tiempo te he mentido
          D#                   C
Pues tus besos no son lo mejor.

 
Aviso: Este fichero es trabajo propio de su transcriptor y representa su interpretación personal de la canción. El material contenido en esta página es para exclusivo uso privado, por lo que se prohibe su reproducción o retransmisión, así como su uso para fines comerciales.

Califica esta canción


Comentarios en Facebook