Enviado por:
Anonimo

Ricardo Arjona, Primera Vez

Intro (2 veces):

      G6           D9/F#        C9/E         Am4
E |------0------------0----------------------------------|
B |------------3------------3------3-----1------3-----1--|
G |---------4------------2------------0------------0-----|
D |---------------------------------------------------0--|
A |------------------------------------------0-----------|
E |---3------------2------------0------------------------|
Dedos 2     4  3   1     2  3      3     1      3     1 

El punteo de la introducción (para hacer con otra guitarra mientras la primera continúa con lo anterior), es algo como esto:

E |---3---7---5---2---0---2---3--3--3--3--0---2---3--3--3--3--| (Bis)
B |---3--(0)-(0)-(0)--0---1---1--1--1--1--0---1---1--1--1--1--|
G |-------7---5---2--(0)-(2)-(0)---------(0)-(2)-(0)----------|
D |-----------------------------------------------------------|
A |-----------------------------------------------------------|
E |-----------------------------------------------------------|

E |--------------------------|
B |--------------0--3--0-----|
G |--------0--2-----------0--|
D |--0--2--------------------|
A |--------------------------|
E |--------------------------|


   G	   D9/F#	Em   Em7
Despacio comienzo en tu boca,
   C		  E6/B	   Am   G
despacio y sin quitarte la ropa;
   F	     Em		D9
mi cama no merece tu cuerpo
		   G
virgen como el Amazonas;
      B7		Em(7)
mucho para un lobo cazador
	A7/A#	     D
pero ideal para el amor.


Despacio voy por tu corazón,
despacio y me detiene un botón,
y mientras dices basta me ayudas;
esa guerra en tu vientre,
entre el sigue y el detente,
que hacen decisivo el presente.

   G			Bm
También es mi primera vez,
    Em			    Bm
pondré el Concierto de Aranjuez
   A		 D
para relajarnos juntos.
   G			Bm
También es mi primera vez,
  Em			Bm
siente como tiemblo, ya ves;
     C		   (Em7B)Am	 D(6)
tuve sexo mil veces pero nunca hice el amor.


G Bm C Em Am D(9) (Bis)

Despacio voy por tu cintura,
despacio y me detiene una duda:
si es que realmente merezco
robarte a la niña
y regalarte a la mujer,
e inscribirme en tu ayer.

También es mi primera vez...

Fuente original: LaCuerda
Colaborador original: Camilo Rodríguez [[email protected]]
Aviso: Este fichero es trabajo propio de su transcriptor y representa su interpretación personal de la canción. El material contenido en esta página es para exclusivo uso privado, por lo que se prohibe su reproducción o retransmisión, así como su uso para fines comerciales.

Califica esta canción


Comentarios en Facebook