Enviado por:
Anonimo

Mana, Sin Tu Cariño

ESTA ROLA ME GUSTA MUCHO Y MAS DESDE 
QUE ME ENAMORE POR PRIMERA VEZ 
DIANA LAURA MALDONADO MALDONADO ESTO ES PARA TI
TE QUIERO MUCHO ATT.ISRA


INTRO:                                               

E-------------------------------
B-------------------------------
G------------------------------            R1          R2              R3   
D---------3-2---------3-2-0-----         I-----   I-3-2-0----   I-3-2----I
A-4-5-5-6-----2-3-4-5-------2-3-         I-4-3-   I-------2-3   I-----2-3I
E-------------------------------         I-----   I----------   I--------I
A       R1      B    R2
NO SÉ CÓMO EXPLICAR 
A        R1        B       R2
LO QUE SIENTO AQÍ ADENTRO
A          R1    B     R2
EDSDE QUE YO TE VI
A        R1        B  R3
TODO CAMBIÓ POR COMPETO
          (igual que arriva).
Y LO SÉ, LO SÉ
QUE ERES TU 
QUIÉN LLENA ESTE VACIO
ERES LA VIDA QUE AY EN MI 
F#m       G#m
QUIERO VIVIRLA 
A        B       E
SIEMPRE JUNTO A TI
 
estribillo:
               A
NO SÉ QUÉ VOY A HACER 
          B  A  F#m        A                      
SIN TU CARIÑO  NO SÉ SI VIVIRÉ 
           B   F#m
SIN TU CARIÑO.

(igual que arriva)

HE CAMINADO TANTAS CALLES 
TAN FRIAS TAN SOLAS 
Y CÚANDO SOLO ME HE SENTIDO
ALLÍ ESTÁS CÓMO UN ESPÍRITU 
Y LO SÉ, LO SÉSIN TU AMOR 
SIENTO QUE ESTOY PERDIDO
SI HAY UN DESEO QUE PEDÍ
ES PASAR MI VIDA ENTERA 
JUNTO A TI.

estribillo

SOLO:
e-------------------------------------------10-I               
B-----5-----8-7-8-7-----7--7-10-9-10-9----10---I               
G-5/7---7-5-7-7-7-7-7/9--9---9--9-9--9-10------I               
D----------------------------------------------I               
A----------------------------------------------I
E----------------------------------------------I                        

e-10/11-11/12-12-12-11-10----------------------I
B-------------------------13-12-10-10/12-12-12-I
G----------------------------------------------I
D----------------------------------------------I
A----------------------------------------------I
E----------------------------------------------I

e-11/13-13-13-13-12-11-12-11-10----------------I
B------------------------------15-13-12--------I
G---------------------------------------15-13-12I
D-----------------------------------------------I
A-----------------------------------------------I
E-----------------------------------------------I
                                               
e----------------------------------------------I
B----------------------------------------------I
G-------------------------15-------------------I
D-15-13-12-------------------------------------I
A----------15-13-12--13-15---12----------------I
E----------------------------------------------I

          G#m
CUANDO MI MUNDO 
           A
ESTÁ AL REVÉS
           B           F#m
ERES MI CALMA, ERES MI FÉ
         G#m                A      
CÓMO LA SANGRE QUE CORRE EN MI 
           B         E
TE NECECITO PARA VIVIR

estribillo 2 veces

Fuente original: LaCuerda
Colaborador original: ISRAEL ARIAS GARCIA [[email protected]:com]
Aviso: Este fichero es trabajo propio de su transcriptor y representa su interpretación personal de la canción. El material contenido en esta página es para exclusivo uso privado, por lo que se prohibe su reproducción o retransmisión, así como su uso para fines comerciales.

Califica esta canción


Comentarios en Facebook