Enviado por:
Anonimo

Mana, Gitana

Imprimir
Pues reconozco que me sudo al sacar el solo de esta rola, no porque nunca haya
sacado uno sino porque nunca habia sacado uno de este tipo de musica.
De todos modos, si encuentran algun error, no duden en avisarme.

2 Guitarras: -Toca los Acordes
             -Toca las Pisadas


ACORDES: Em D Am C G C D

Solo:

1. ------3-5-5/7-7h8h10--8p7-5-7-8-10-7-3-5---------------
2. -7-3--------------------------------------3h5p3--------
3. ---------------------------------------------------3---
4. ------------------------------------------------5------
5. -------------------------------------------------------
6. -------------------------------------------------------

1. ----------------------------------3-5-2h3p2---9-7-5-----
2. ------------------------4-6-5h6p5------------10-9-7-----
3. ----------3/5--5h6---5-7--------------------------------
4. ------3-5---------5-7-----------------------------------
5. --3-5---------------------------------------------------
6. --------------------------------------------------------


1. -9-9-9-7-5-7-7/9-9-7-5-----5-7-9---------------------1-2h3-2-----------
2. -----------------------9-7-----------------13-11-9--3--------3-1-------
3. -----------------------------------15-12-10----------------------3-----
4. -----------------------------------------------------------------------
5. -----------------------------------------------------------------------
6. -----------------------------------------------------------------------

1. ----------------------7h8p7-10-12---11-11-7-11---11-11-7-11------
2. -----5-7---9-11-9-----------------5------------5-----------------
3. ---7-----7----------9--------------------------------------------
4. -----------------------------------------------------------------
5. -----------------------------------------------------------------
6. -----------------------------------------------------------------


Bueno, que les parecio? Esta un poco largo y se toca muy rapido, pero
la practica hace al maestro, no hay que desesperarse. Dudas
o comentarios, al mail de arriba. Suerte!!!

Fuente original: LaCuerda
Colaborador original: german ahumada [[email protected]]
Aviso: Este fichero es trabajo propio de su transcriptor y representa su interpretación personal de la canción. El material contenido en esta página es para exclusivo uso privado, por lo que se prohibe su reproducción o retransmisión, así como su uso para fines comerciales.

Califica esta canción


Comentarios en Facebook